Thirteen Autumns a Widow - Tab.

21. července 2006 v 14:55 | Diablo
Riff 1

x 1

-------------------------------------------------
-------------------------------------------------
-------------------------------------------------
-5-5-5-5-5-5-5-5-5-5-5-5-5-5-5-5-5-5-5-5-5-5-5-5-
-3-3-3-3-3-3-3-3-3-3-3-3-3-3-3-3-3-3-3-3-3-3-3-3-
-------------------------------------------------

1 2 3 4

-------------------------------------------------
-------------------------------------------------
-------------------------------------------------
-------------------------------------------------
-4-----------------------------------------------
-2-----------------------------------------------

1 2 3 4

x 2

-------------------------------------------------
-------------------------------------------------
-------------------------------------------------
-5-5-5-5-5-5-5-5-5-5-5-5-5-5-5-5-5-5-5-5-5-5-5-5-
-3-3-3-3-3-3-3-3-3-3-3-3-3-3-3-3-3-3-3-3-3-3-3-3-
-------------------------------------------------

1 2 3 4

-------------------------------------------------
-------------------------------------------------
-------------------------------------------------
-------------------------------------------------
-3-----------------------------------------------
-1-----------------------------------------------

1 2 3 4


x 1

-------------------------------------
-------------------------------------
-------------------------------------
-5-5-5-5-5-5-5-5-5-5-5-5-5-5-5-5-5-5-
-3-3-3-3-3-3-3-3-3-3-3-3-3-3-3-3-3-3-
-------------------------------------

1 2 3

Riff 2

x 4

-------------------------------------------------
-------------------------------------------------
-------------------------------------------------
-------------------------------------------------
-4-----------3-----------4-----------3-----------
-2-----------1-----------2-----------1-----------

1 2 3 4

-------------------------------------------------
-------------------------------------------------
-------------------------------------------------
-------------------------------------------------
-8-8-8-8-8-8-8-8-8-8-8-8-8-8-8-8-8-8-8-8-8-8-8-8-
-6-6-6-6-6-6-6-6-6-6-6-6-6-6-6-6-6-6-6-6-6-6-6-6-

1 2 3 4

Riff 3

x 2

-------------------------------------------------
-------------------------------------------------
-------------------------------------------------
-------------------------------------------------
-4-4-4-4-4-4-4-4-4-4-4-4-4-4-4-4-4-4-4-4-4-4-4-4-
-2-2-2-2-2-2-2-2-2-2-2-2-2-2-2-2-2-2-2-2-2-2-2-2-

1 2 3 4

-------------------------------------------------
-------------------------------------------------
-------------------------------------------------
-5-5-5-5-5-5-5-5-5-5-5-5-5-5-5-5-5-5-5-5-5-5-5-5-
-3-3-3-3-3-3-3-3-3-3-3-3-3-3-3-3-3-3-3-3-3-3-3-3-
-------------------------------------------------

1 2 3 4

x 2

-------------------------------------------------
-------------------------------------------------
-------------------------------------------------
-------------------------------------------------
-3-----------------------------------------------
-1-----------------------------------------------

1 2 3 4

-------------------------------------------------
-------------------------------------------------
-------------------------------------------------
-5-5-5-5-5-5-5-5-5-5-5-5-5-5-5-5-5-5-5-5-5-5-5-5-
-3-3-3-3-3-3-3-3-3-3-3-3-3-3-3-3-3-3-3-3-3-3-3-3-
-------------------------------------------------

1 2 3 4

** Riff 2 **

Riff 4

x 4

-------------------------------------------------
-------------------------------------------------
-------------------------------------5---7---7---
-5---5---5---7---8---8---8---8---8---------------
-----------------------
 

Buď první, kdo ohodnotí tento článek.

Nový komentář

Přihlásit se
  Ještě nemáte vlastní web? Můžete si jej zdarma založit na Blog.cz.