The Twisted Nails Of Faith -Tab.

21. července 2006 v 14:59 | Diablo
Symbols used:
"..": play the note the appropriate number of times.
"h": hammer on
"p": pull off
"m": palm mute
"/": slide



ex) ---------------------
---------------------
---------------------
---------------------
------Pow 5------
---------------------

This would be equivalent to

---------
---------
---7----
---7----
---5----
---------

I hope there is gonna be no confusion about this.

Ok, let's kill...


Figure A: keyboard intro

1:---19--20------------------------17----------------------------------19--20--19--

2:--------------17--18--17--18-------18--17--18--19--18--17---------------------



Figure B:

5:---pow3---pow5---pow4----------------------------------------------
6:----------------------------------pow5---pow6---pow4---pow7------

5:---pow3---pow5---pow4-----------------------------------------------------------------------------

6:----------------------------------pow5---pow4---pow3---pow4---pow3---pow2---pow3-----------



Figure C:

5:---pow5---pow6---------------------------------pow4---pow5--------------

6:------------------------pow6/pow7---pow6-------------------------pow2---

4:------------------------8..---------9..---8..---6..---9..---8..-----------------------

5:---/6..---8..---6..---------8..------------------------------------9..---8..----------

6:------------------------------------------------------------------------------------



Figure D: keyboard in the middle

1:------------0-----------------4------------
2:------------0-----------------4------------
3:------------0-----------------4------------
4:------------2-----------------6------------
5:------------2-----------------6------------
6:------------0-----------------4------------


Figure E:

6:---pow0---pow0---pow0---pow2---pow0---pow2---pow3---pow2---pow3---pow2----

6:---pow4---pow4---pow4---pow6---pow4---pow6---pow7---pow6---pow7---pow6----



Figure F:

4:---0..--3..--4..------

4:---0..--2..--3..------

4:---0..--1..--2..------


Figure G: just a little variation to Figure F

4:---0h3h4------

4:---0h2h3------

4:---0h1h2------


Figure H:

3:---13-12-13--------12-13-------12-13-------12-13-------12--13--12---------

4:------------------10------------10-----------10------------10-------------------



Figure I:

3:---14-13-14--------13-14-------13-14-------13-14-------13--14--13----------

4:-----------------11-------------11-----------11------------11--------------------



Figure J:

4:-------7-8------7-8-----7-8------7-8-------7-8-7------
5:---5---------5--------5---------5---------5--------------


Figure K:

3:---6---------6--------6-------6----------6--------6-----------
4:-------8-7------8-7-----8--------8-7------8-7------8-7------


Figure L:
3:---6---------6--------6------6--------------------
4:-------8-7------8-7-----8------8-7-5-7-8-7------


Figure M:
6:---pow2--pow2---pow6--pow6---pow2--pow2--pow6--pow6--pow4--pow4--


Figure N:
6:---pow2--pow4--pow1---pow6---


Figure O:
6:---pow2---m2..---pow6---m6..---pow2---m2..---pow6---m6..---pow4---m4...---



Figure P:
3:------6p5-----6------6--------
4:--4---------4-----4------------


Figure Q:
3:------10p9------10------10------
4:--8------------8-------8----------
 

Buď první, kdo ohodnotí tento článek.

Nový komentář

Přihlásit se
  Ještě nemáte vlastní web? Můžete si jej zdarma založit na Blog.cz.