The Principle of Evil Made Flesh - Tab.

21. července 2006 v 15:19 | Diablo
Intro

x 4

-------------------
-------------------
-------------------
-3-3/4\3---7-6-5-6-
-3-3/4\3---7-6-5-6-
-1-1/2\1---5-4-3-4-

Riff 1

|---------------------------------|
|---------------------------------|
|---------------------------------|
|-3---3-3-3-3-3-3-7---6---5---6---|
|-3---3-3-3-3-3-3-7---6---5---6---|
|-1---1-1-1-1-1-1-5---4---3---4---|
| 1 e + a 2 e + a 3 e + a 4 e + a |
| |
|---------------------------------|
|---------------------------------|
|-----------------9---8---7---8---|
|---------------------------------|
|---------------------------------|
|---------------------------------|
1 e + a 2 e + a 3 e + a 4 e + a

Riff 2

x 2

------------------------
------------------------
-8---9---8---9---12--11-
-8---9---8---9---12--11-
-6---7---6---7---10--9--
------------------------

** Riff 1 **

Riff 3

|-----------------------------------------------------------------|
|-----------------------------------------------------------------|
|-----------------------------------------------------------------|
|-----------------------------------------------------------------|
|-7-8-7-6-7-8-7-6-7-8-7-6-7-8-7-6-7-8-7-6-7-8-7-6-7-8-7-6-7-8-7-6-|
|-----------------------------------------------------------------|
| 1 + 2 + 3 + 4 + 1 + 2 + 3 + 4 + 1 + 2 + 3 + 4 + 1 + 2 + 3 + 4 + |
| |
|-----------------------------------------------------------------|
|-----------------------------------------------------------------|
|-----------------------------------------------------------------|
|-----------------------------------------------------------------|
|-----------------7-8-7-6-7-8-7-6-7-8-7-6-7-8-7-6-7-8-7-6-7-8-7-6-|
|-----------------------------------------------------------------|
1 + 2 + 3 + 4 + 1 + 2 + 3 + 4 + 1 + 2 + 3 + 4 + 1 + 2 + 3 + 4 +

Riff 4

x 4

----------------------------
----------------------------
----------------------------
-2---3-5-3---2---9-10-9-7-3-
-2---3-5-3---2---9-10-9-7-3-
-0---1-3-1---0---7-8--7-5-1-

Riff 5

|-----------------------------------|
|-----------------------------------|
|-------------------10--------------|
|-7-----------------10--------------|
|-7-----------------8---------------|
|-5---------------------------------|
| |
|-----------------------------------|
|-----6-5---5-----------6-5---5-----|
|---------7---7-5-----------7---7-5-|
|-----------------------------------|
|-----------------------------------|
|-----------------------------------|

|-----------------------------------|
|-----------------------------------|
|-7-----------------9---------------|
|-7-----------------9---------------|
|-5-----------------7---------------|
|-----------------------------------|
| |
|-----------------------------------|
|-----------------------6-5---5-----|
|---------------------------7---7-5-|
|-----------------------------------|
|-----------------------------------|
|-----------------------------------|

Solo /w Riff 5 chords

-------------------------------5---7---8-7-8-7-8---10---8-7-8-7-8-7-
-----------5---6-5-6-5-6---8----------------------------------------
-5-4---7------------------------------------------------------------
--------------------------------------------------------------------
--------------------------------------------------------------------
--------------------------------------------------------------------

-10---12---13-12-------------------------------------------------------------
-----------------12b13-12b13r12-10-9-----------------------------------------
---------------------------------------9-10---10-9-10-9-10----------------9\-
-----------------------------------------------------------10-9-10-9-10------
-----------------------------------------------------------------------------
-----------------------------------------------------------------------------

Riff 6

---------------
---------------
---------------
-7---8---3---2-
-7---8---3---2-
-5---6---1---0-

Riff 7

-----------------------------------------------------------
-----------------------------------------------------------
-----------------------------------------------------------
-----------------------------------------------------------
-7h8-7p5---7h8-7p5---7h8-7p5---7h8-7p5---7h8-7p5---7h8-7p5-
-----------------------------------------------------------

-------------|---------
-------------|---------
-------------|---------
-11-10-13-12-|-11-10-8-
-11-10-13-12-|-11-10-8-
-9--8--11-10-|-9--8--6-

Riff 8

----------------------------------------
----------------------------------------
----------------------------------------
-12/14-14-14---15-15---13p12-12-12------
-12/14-14-14---15-15---13p12-12-12------
-10/12-12-12---15-15---13p12-12-12------

Bass Solo

----------------------------- ------
----------------------------- ------
-7-8-7-5-7-5---5------------- ------
-------------8---8-7-8-5-4-5- 7-5-1-

** Riff 1 **

** Riff 2 **

Outro

x 3

------------------------------
------------------------------
------------------------------
-2---3-5-3---2---9---10-9-7-3-
-2---3-5-3---2---9---10-9-7-3-
-0---1-3-1---0---7---8--7-5-1-

x 1

-----------------------------------------
-----------------------------------------
-----------------------------------------
-2---3-5-3---2---9-10-9-7-3---9-10-9-7-3-
-2---3-5-3---2---9-10-9-7-3---9-10-9-7-3-
-0---1-3-1---0---7-8--7-5-1---7-8--7-5-1-

--------------------------------------------------
--------------------------------------------------
--------------------------------------------------
-9-10-9-7-3---9-10-9-7-3--9-10-9-7-3---9-10-9-7-3-
-9-10-9-7-3---9-10-9-7-3--9-10-9-7-3---9-10-9-7-3-
-7-8--7-5-1---7-8--7-5-1--7-8--7-5-1---7-8--7-5-1-
 

Buď první, kdo ohodnotí tento článek.

Komentáře

1 mbt shoes uk mbt shoes uk | E-mail | Web | 7. června 2013 v 5:26 | Reagovat

Your question answered, I am very satisfied, it should mean you get the signs of new readers.Do you have any suggestions you put your list so that we can enjoy together!You see the blog I am also very happy.

Nový komentář

Přihlásit se
  Ještě nemáte vlastní web? Můžete si jej zdarma založit na Blog.cz.