The Black Godess Rises - Tab.

21. července 2006 v 15:21 | Diablo
Riff 1

----------
----------
----------
----------
----------
-8\---0-0-
^ ^

Riff 2

x 4

--------------------
--------------------
--------------------
-2---4-5-3----------
-2---4-5-3----------
-0---2-3-1---8v--6v-
^ ^

Riff 3

x 1

-----------------------------------
-----------------------------------
-----------------------------------
-7----------------7----------------
-7---7h8-6v---6-6-7---7h8----------
-5----------------5-------6v---6-6-

------------------------------
------------------------------
------------------------------
-7----------------------------
-7---7h8-6---6-6------7h8p7---
-5---------------5v--------6v-

Riff 4

x 4

-------------------------------------------------
-------------------------------------------------
-------------------------------------------------
-4/5\4-2-2---4/5\4-2-2---4/5\4-2-2---4/5---4-4/5-
-4/5\4-2-2---4/5\4-2-2---4/5\4-2-2---4/5---4-4/5-
-2/3\2-0-0---2/3\2-0-0---2/3\2-0-0---2/3---0h2/4-

x 1

---
---
---
-2-
-2-
-0-

Riff 5

x 1 - pick slide

---
---
---
---
---
->-

x 4

---------------------------------------------
---------------------------------------------
---------------------------------------------
-3-2-3-2-3-2-----------3-2-3-2---------------
-3-2-3-2-3-2-----------3-2-3-2---------------
-1-0-1-0-1-0-1-0-7/8---1-0-1-0-4h5-3h5-1h3-1-

Riff 6

x 2

-----------------------------------------------------------------
-----------------------------------------------------------------
-----------------------------------------------------------------
-----------------------------------------------------------------
-7-7-7-7-7-7-7-7-------------------------------------------------
-----------------7-7-7-7-6-6-6-6-0-0-0-0-0-0-0-0-0---2---3---7---
^ ^ ^ ^

-----------------------------------------------------------------
-----------------------------------------------------------------
-----------------------------------------------------------------
-----------------------------------------------------------------
-7-7-7-7-7-7-7-7---------------------------------------------5---
-----------------8-8-8-8-7-7-7-7-6-6-6-6-6-6-6-6-5---7---8-------
^ ^ ^ ^

Riff 7

x 2

-------------------------------------------
-------------------------------------------
-------------------------------------------
-------------------------------------------
-7v--7/9-7-5---5h7p5-----------------------
---------------------5---5-7-8---8-7-8-7-0-

Riff 8

x 4

-------------------------------------------------
-------------------------------------------------
-------------------------------------------------
-2-4-5---5-5---5-7---7-7---7-9---9-9---9-9---9-9-
-2-4-5---5-5---5-7---7-7---7-9---9-9---9-9---9-9-
-0-2-3---3-3---3-5---5-5---5-7---7-7---7-7---7-7-
^ ^ ^ ^ ^
x 1

-----
-----
-----
-9-2-
-9-2-
-7-0-

** Riff 7 **

** Riff 8 **

Riff 9

--------
--------
--------
--9--7--
--7--5--
--0-----

** Riff 5 ** x 2

** Riff 6 **

Riff 10 - Bass

x 4

-------------------
-------------------
-------------------
-0---2-3-1---8---6-

** Riff 2 **

** Riff 3 **

** Riff 4 **
 

Buď první, kdo ohodnotí tento článek.

Komentáře

1 mbt shoes uk mbt shoes uk | E-mail | Web | 7. června 2013 v 5:44 | Reagovat

Your question answered, I am very satisfied, it should mean you get the signs of new readers.Do you have any suggestions you put your list so that we can enjoy together!You see the blog I am also very happy.

Nový komentář

Přihlásit se
  Ještě nemáte vlastní web? Můžete si jej zdarma založit na Blog.cz.