Nocturnal Supremacy - Tab.

21. července 2006 v 15:16 | Diablo
Riff 1

x 5

---------------------
---------------------
-9---8/9-8--------10-
-9---8/9-8---10---10-
-7---6/7-6---10---8--
-------------8-------

Riff 2

x 2

-----------------------------------------------------------------
-----------------------------------------------------------------
-9-9-9-9-9-9-9-9-9-9-9-9-8-8-9-9-8-8-8-8-8-8-8-8-8-8-8-8-8-8-8-8-
-9-9-9-9-9-9-9-9-9-9-9-9-8-8-9-9-8-8-8-8-8-8-8-8-8-8-8-8-8-8-8-8-
-7-7-7-7-7-7-7-7-7-7-7-7-6-6-7-7-6-6-6-6-6-6-6-6-6-6-6-6-6-6-6-6-
-----------------------------------------------------------------
1 e + a 2 e + a 3 e + a 4 e + a 1 e + a 2 e + a 3 e + a 4 e + a

-------------------------------------------------
-------------------------------------------------
-------------------------------------------------
-10-10-10-10-10-10-10-10-10-10-10-10-10-10-10-10-
-10-10-10-10-10-10-10-10-10-10-10-10-10-10-10-10-
-8--8--8--8--8--8--8--8--8--8--8--8--8--8--8--8--
1 e + a 2 e + a 3 e + a 4 e + a

-------------------------------------------------
-------------------------------------------------
-10-10-10-10-10-10-10-10-10-10-10-10-10-10-10-10-
-10-10-10-10-10-10-10-10-10-10-10-10-10-10-10-10-
-8--8--8--8--8--8--8--8--8--8--8--8--8--8--8--8--
-------------------------------------------------
1 e + a 2 e + a 3 e + a 4 e + a

Riff 3

x 2

-------------------------------------
-------------------------------------
-------------------------------------
-------------------------------------
-7---7-8-7-8---7-8-7-5---------5-8-7-
-------------------------8-7-8-------

x 2

|-------------------------------------|
|-------------------------------------|
|-------------------------------------|
|-------------------------------------|
|-7---7-8-7-8---7-8-7-5---------5-8-7-|
|-------------------------8-7-8-------|
| |
|-------------------------------------|
|-5---5-6-5-6---5-6-5-------------6-5-|
|---------------------7---5-4-5-7-----|
|-------------------------------------|
|-------------------------------------|
|-------------------------------------|

** Riff 1 **

Riff 5

x 2

---------------------------------------
---------------------------------------
---------------------------------------
---------------------------------------
-7---8-7-5-----------------------7---5-
-----------8---7-8-7-5---7-5-7-8---8---

x 2

|-----------------------------------------|
|-----------------------------------------|
|-----------------------------------------|
|-----------------------------------------|
|-7---8-7-5-------------------------7---5-|
|-----------8---7-8-7-5---7-5-7-8-----8---|
| |
|-----------------------------------------|
|-----------------------------------------|
|-----------------------------------------|
|-5---7-5---------------------------------|
|---------8-7---5-7-5-----5---5-7---8-7-8-|
|---------------------8-----8-------------|

Riff 4

x 4

-------------------------------------------------------------------
-------------------------------------------------------------------
-7-7-7---10/12-10--7-7-7---8-8-8---7-7-7---10/12-10----------------
-7-7-7---10/12-10--7-7-7---8-8-8---7-7-7---10/12-10----------------
-5-5-5---8-/10-8---5-5-5---6-6-6---5-5-5---8-/10-8---6---5---3-5-3-
-------------------------------------------------------------------

** Riff 3 **

Riff 5

x 4

-----------------------------------------------------------------
-----------------------------------------------------------------
-----------------------------------------------------------------
-----------------5-5-5-5-5-----------------------5-5-5-5-5-------
-7-7-7-7-8-8-8-8-----------8-7-8-7-7-7-7-8-8-8-8-----------8-7-8-
-----------------------------------------------------------------

-----------------------------------------------------------------
-----------------------------------------------------------------
-----------------------------------------------------------------
---------8-8-8-8-7-7-7-7-5-5-5-5---------8-8-8-8-7-7-7-7-5-5-5-5-
-5-5-5-5-------------------------5-5-5-5-------------------------
-----------------------------------------------------------------

Riff 6

x 2

---------------------------------
---------------------------------
-9---9-10-9---7-10-7---8---7---8-
-9---9-10-9---7-10-7---8---7---8-
-7---7-8--7---7-8--5---6---5---6-
---------------------------------

** Riff 1 **

** Riff 6 ** /w Riff 4

skipped (solo)

** Riff 7 **

x 6

---------------------------------------
---------------------------------------
---------------------------------------
---------------------------------------
---------------------------------------
-0-2-0-5---0-2-0-5---0-2-0-5---0-2-3-0-

x 2

---------------------------------------
---------------------------------------
---------------------------------------
---------------------------------------
-------6---------6---------6---------6-
-6-8-6-----6-8-6-----6-8-6-----6-8-6---

x 2

---------------------------------------
---------------------------------------
---------------------------------------
---------------------------------------
---------------------------------------
-0-2-0-5---0-2-0-5---0-2-0-5---0-2-3-0-

** Riff 3 **
 

Buď první, kdo ohodnotí tento článek.

Komentáře

1 mbt shoes uk mbt shoes uk | E-mail | Web | 7. června 2013 v 5:29 | Reagovat

Your question answered, I am very satisfied, it should mean you get the signs of new readers.Do you have any suggestions you put your list so that we can enjoy together!You see the blog I am also very happy.

Nový komentář

Přihlásit se
  Ještě nemáte vlastní web? Můžete si jej zdarma založit na Blog.cz.