Heaven Torn Asunder - Tab.

21. července 2006 v 15:10 | Diablo
Riff 1

x 2

-------------------------------------------------
-------------------------------------------------
-------------------------------------------------
-7-----------7-----------7-----------7-----------
---5-4-5-4-5---5-4-5-4-5---5-4-5-4-5---5-4-5-4-5-
-------------------------------------------------

-------------------------------------------------
-------------------------------------------------
-------------------------------------------------
-6-----------6-----------6-----------6-----------
---5-4-5-4-5---5-4-5-4-5---5-4-5-4-5---5-4-5-4-5-
-------------------------------------------------

Riff 2

x 1

---------------
---------------
-7---6---7---9-
-7---6---7---9-
-5---4---5---7-
---------------

Riff 3

x 1

--------------------------------------------------------
--------------------------------------------------------
-10--9---7-----------9-----------7-------------9---10-9-
-10--9---7---5---5---9-----------7---5---5-----9---10-9-
-8---7---5-----8---8-7---8-7-8-7-5-----8---8---7---8--7-
--------------------------------------------------------

--------------------------------------------------------------
--------------------------------------------------------------
-7-----------9---10--9---7------------------------------------
-7---5---5---9---10--9---7---5---5----------------5-5---------
-5-----8---8-7---8---7---5-----8---8p7/12---5-5-5-----8-7-5-4-
--------------------------------------------------------------

** Riff 1 **

Riff 4

x 2

-------------------------------------------------------
-------------------------------------------------------
-------------------------------------------------------
-7-5-4-5-4-5---7-5-4-5-4-5---7-5-4-5-4-5---7-5-4-5-4-5-
-------------------------------------------------------
-------------------------------------------------------

-------------------------------------------------------
-------------------------------------------------------
-------------------------------------------------------
-6-5-4-5-4-5---6-5-4-5-4-5---6-5-4-5-4-5---6-5-4-5-4-5-
-------------------------------------------------------
-------------------------------------------------------

Riff 5

x 4

-------------------------------------------------------------------
-------------------------------------------------------------------
-------------------------------------------------------------------
-7---7-7---7-7---7-7---7-7--7-7---7---7-7---7-7---7-7---7-7--7-7---
-7---7-7---7-7---7-7---7-7--5-7---7---7-7---7-7---7-7---7-7--7-7---
-5---5-5---5-5---5-5---5-5--3-5---5---5-5---5-5---5-5---5-5--3-5---

---------------
-8-6-5-6-5-6-5-
---------------
---------------
---------------
---------------

Riff 6

x 4

-------------------------------------------------------
-------------------------------------------------------
-------------------------------------------------------
-------------------------------------------------------
-----------------------------------------5-------------
-5---8-8---7-8-7-5---7-8-7-5---5---8-8-----8-7-8-7-8-7-


Riff 7

x 2

-------------------------------------------------
-------------------------------------------------
-------------------------------------------------
-------------------------------------------------
-7-7-7-7-7-5-7-7-7-7-7-5-7-7-7-7-7-5-7-8-7-5-7-5-
-------------------------------------------------
1 + a 2 + a 3 + a 4 + a 1 + a 2 + a 3 + a 4 + a

-------------------------------------------------
-------------------------------------------------
-------------------------------------------------
-------------------------------------------------
-4-4-4-4-4---4-4-4-4-4---4-4-4-4-4---4-5-4---4-5-
-----------7-----------7-----------7-------7-----
1 + a 2 + a 3 + a 4 + a 1 + a 2 + a 3 + a 4 + a

x 1

-------------------------------------------------
-------------------------------------------------
-------------------------------------------------
-------------------------------------------------
-7-7-7-7-7-5-7-7-7-7-7-5-7-7-7-7-7-5-7-8-7-5-7-8-
-------------------------------------------------
1 + a 2 + a 3 + a 4 + a 1 + a 2 + a 3 + a 4 + a

-------------------------------------------------
-------------------------------------------------
-------------------------------------------------
-------------------5-----5-5-5-5-5-5-7-5---5-----
-8-8-8-8-8-8-5-7-8---8-7-----------------8---8-5-
-------------------------------------------------
1 + a 2 + a 3 + a 4 + a 1 + a 2 + a 3 + a 4 + a

x 2

-------------------------------------------------
-------------------------------------------------
-------------------------------------------------
-------------------------------------------------
-7-7-7-7-7-5-7-7-7-7-7-5-7-7-7-7-7-5-7-8-7-5-7-5-
-------------------------------------------------
1 + a 2 + a 3 + a 4 + a 1 + a 2 + a 3 + a 4 + a

-------------------------------------------------
-------------------------------------------------
-------------------------------------------------
-------------------------------------------------
-4-4-4-4-4---4-4-4-4-4---4-4-4-4-4---4-5-4---4-5-
-----------7-----------7-----------7-------7-----
1 + a 2 + a 3 + a 4 + a 1 + a 2 + a 3 + a 4 + a


Riff 8

x 1

--------------------
--------------------
---------9---7------
---7-5---9---7---10-
-7-----8-7---5---10-
-----------------8--

x 2

----------------------------------------------------------
----------------------------------------------------------
----------------------------------------------------------
-5-----5-----5-----7-----7-----7-----9-------9-------9----
---7-7---7-7---7-----9-9---9-9---9-----10-10---10-10---10-
----------------------------------------------------------

------------------------------------------------------------
------------------------------------------------------------
------------------------------------------------------------
-10-10-10---9-9-9---7-7---5-----5-----5-----4-----4-----4---
----------------------------7-7---7-7---7-----5-5---5-5---5-
------------------------------------------------------------

-----------------------------------
-----------------------------------
-----------------------------------
-----------------------------------
-2-----2-----2-----4-----4-----4---
---3-3---3-3---3-----5-5---5-5---5-

** Riff 6 **

Riff 9

x 1

---------------------------------------------------
---------------------------------------------------
---------------------------------------------------
---------------------------------------------------
---------------------------------------------------
-0-0---0-1---0-0---0-6-6---2-2---2-3---1-1---1-7-7-

** Riff 7 **

Riff 10

-----------------------------------------
-----------------------------------------
-7---6---7---6---10------------9---------
-7---6---7---6---10----5-7-5---9-------5-
-5---4---5---4---8---8-------8-7---7-8---
-----------------------------------------

-----------------------------------------
-----------------------------------------
-10------------9-------------------------
-10----5-7-5---9-------5-----------------
-8---8-------8-7---7-8-----8-7-5---------
-----------------------------------8-7-5-

** Riff 3 **

** Riff 1 **

** Riff 4 **

Riff 11

x 4

-------------------------------------------------
-------------------------------------------------
-------------------------------------------------
-------------------------------------------------
-7-7-7-7-7-5-7-7-7-7-7-5-7-7-7-7-7-5-7-8-7-5-7-8-
-------------------------------------------------
1 + a 2 + a 3 + a 4 + a 1 + a 2 + a 3 + a 4 + a

-------------------------------------------------
-------------------------------------------------
-------------------------------------------------
-------------------5-----5-5-5-5-5-5-7-5---5-----
-8-8-8-8-8-8-5-7-8---8-7-----------------8---8-5-
-------------------------------------------------
1 + a 2 + a 3 + a 4 + a 1 + a 2 + a 3 + a 4 + a
 

Buď první, kdo ohodnotí tento článek.

Nový komentář

Přihlásit se
  Ještě nemáte vlastní web? Můžete si jej zdarma založit na Blog.cz.