Funeral In Carpathia - Tab.

21. července 2006 v 15:11 | Diablo
Riff 1

x 8

|---------------------------------------------------------------------|
|---------------------------------8--8--8--8--8-8-8-8-7-7-7-7-7-7-7-7-|
|---------------------------------------------------------------------|
|---------------------------------------------------------------------|
|---------------------------------------------------------------------|
|---------------------------------------------------------------------|
| |
|---------------------------------------------------------------------|
|---------------------------------------------------------------------|
|---------------------------------------------------------------------|
|---------------------------------------------------------------------|
|---------7-7-7-7-9-9-9-9-7-7-7-7-10-10-10-10-9-9-9-9-7-7-7-7-9-9-9-9-|
|---------------------------------------------------------------------|

Riff 2

x 2

-------------------------------------------------------
-------------------------------------------------------
-------------------------------------------------------
-------------10-10-10-10-10-10-9-9-9-9-9-9-7-7-7-7-7-7-
-7-7-7-7-7-7-------------------------------------------
-------------------------------------------------------

-------------------------------------------------------
-------------------------------------------------------
-------------------------------------------------------
-------------10-10-10-10-10-10-9-9-9-9-7-9-7-7-7-7-7-7-
-7-7-7-7-7-7-------------------------------------------
-------------------------------------------------------

--------------------------------------------------------
--------------------------------------------------------
-------------------------------7-7-7-7------------------
-------------10-10-10-10-10-10---------10-9-7-7-7-7-7-7-
-7-7-7-7-7-7--------------------------------------------
--------------------------------------------------------

|-----------------------------------------------------------|
|-----------------------------------------------------------|
|-------------------------------7---------------------------|
|-------------10-10-10-10-10-10---10-9-10-9-7-9-7----7------|
|-7-7-7-7-7-7-------------------------------------10---10-9-|
|-----------------------------------------------------------|
| |
|-----------------------------------------------------------|
|-----------------------------------------------------------|
|-------------------------------10-9-7-9-7----7-------------|
|-------------10-10-10-10-10-10------------10---10-9-10-9-7-|
|-7-7-7-7-7-7-----------------------------------------------|
|-----------------------------------------------------------|

** Riff 1 **

Riff 3

Skipped

-------------------------------------------------------
-------------------------------------------------------
-------------------------------------------------------
-------------------------------------------------------
-------------------------------------------------------
-------------------------------------------------------

Riff 4

-------------------------------------------------------
-------------------------------------------------------
-------------------------------------------------------
-------------7-7-7-7-7-7-------------------------------
-8-8-8-8-8-8-------------10-10-10-10-10-10-8-8-8-8-8-8-
-------------------------------------------------------

-------------------------------------------------------
-------------------------------------------------------
-------------------------------------------------------
-------------------------------------------------------
-7-7-7-7-7-7-10-10-10-10-10-10-8-8-8-8-8-8-7-7-7-7-7-7-
-------------------------------------------------------

-------------------------------------------------------
-------------------------------------------------------
-------------------------------------------------------
-------------7-7-7-7-7-7-------------------------------
-8-8-8-8-8-8-------------10-10-10-10-10-10-8-8-8-8-8-8-
-------------------------------------------------------

-------------------------------------------------------
-------------------------------------------------------
-------------------------------------------------------
-------------------------------------------------------
-7-7-7-7-7-7-10-10-10-10-10-10-8-8-8-8-8-8-7-7-7-7-7-7-
-------------------------------------------------------

-------------------------------------------------------------
-------------------------------------------------------------
-------------------------------------------------------------
-------------------------------------------------------------
-------------------8-8-8-8-8-8-7-7-7-7-7-7-------------------
-10-10-10-10-10-10-------------------------10-10-10-10-10-10-

-------------------------------------------------------
-------------------------------------------------------
-------------------------------------------------------
-------------------------------------------------------
-------------7-7-7-7-7-7-------------------------------
-9-9-9-9-9-9-------------10-10-10-10-10-10-9-9-9-9-9-9-

-------------------------------------------------------------
-------------------------------------------------------------
-------------------------------------------------------------
-------------------------------------------------------------
-------------------8-8-8-8-8-8-7-7-7-7-7-7-------------------
-10-10-10-10-10-10-------------------------10-10-10-10-10-10-

-------------------------------------------------------
-------------------------------------------------------
-------------------------------------------------------
-------------------------------------------------------
-------------7-7-7-7-7-7-------------------------------
-9-9-9-9-9-9-------------10-10-10-10-10-10-9-9-9-9-9-9-

Riff 5

x 4

--------------------------------------------------------
--------------------------------------------------------
--------------------------------------------------------
-10-9-7-9-10-9-10---10-9-7-9-10-9-10---10-9-7-9-10-9-10-
--------------------------------------------------------
--------------------------------------------------------

-------------------
-------------------
-7--------9-7------
---10-9-7-----10-9-
-------------------
-------------------

--------------------------------------------------------
--------------------------------------------------------
--------------------------------------------------------
-10-9-7-9-10-9-10---10-9-7-9-10-9-10---10-9-7-9-10-9-10-
--------------------------------------------------------
--------------------------------------------------------

------------------
------------------
------------------
---10-9-10-9-7----
---------------10-
------------------

Riff 5a /w Riff 5

x 2

-----------------------------------------------
-8-7---7-8-7-8---8-7---7-8-7-8---8-7---7-8-7-8-
-----9---------------9---------------9---------
-----------------------------------------------
-----------------------------------------------
-----------------------------------------------

----------7---------
-10-8-7-----10-8-7--
--------9-----------
--------------------
--------------------
--------------------

-----------------------------------------------
-8-7---7-8-7-8---8-7---7-8-7-8---8-7---7-8-7-8-
-----9---------------9---------------9---------
-----------------------------------------------
-----------------------------------------------
-----------------------------------------------

----------------
----------------
-10-8-7-8-7-----
------------9-7-
----------------
----------------

Riff 6 - Solo 1

x 2

-----------------------------------------------------------------
-14t10p7-14t10p7-14t10p7-14t10p7---------------------------------
---------------------------------14t11p7-14t11p7-14t11p7-14t11p7-
-----------------------------------------------------------------
-----------------------------------------------------------------
-----------------------------------------------------------------

-----------------------------------------------------------------
-14t10p7-14t10p7-14t10p7-14t10p7---------------------------------
---------------------------------14t11p7-14t11p7-14t11p7-14t11p7-
-----------------------------------------------------------------
-----------------------------------------------------------------
-----------------------------------------------------------------

-------------------------------------------------------------
-14t10p7-14t10p7-14t10p7-14t10p7-12t9p5-12t9p5-12t9p5-12t9p5-
-------------------------------------------------------------
-------------------------------------------------------------
-------------------------------------------------------------
-------------------------------------------------------------

-9---10p9-7---9-10-
-------------------
-------------------
-------------------
-------------------
-------------------

** Riff 4 **

Riff 7a

x 1

----------------------------------------
----------------------------------------
-9------9-------------------------------
-9------9---12---10--9------7-----------
-7------7---12---10--9---10---10-9-10-9-
------------10---8---7------------------

Riff 7b

x 4

----------------------------------------
----------------------------------------
----------------------------------------
--------7---------------9---------------
-7-9-10---10-9---7-9-10---10-9----------
----------------------------------------

Riff 7c

x 1

---------------------------------
---------------------------------
-9-------------------------------
-9---12---10--9------7-----------
-7---12---10--9---10---10-9-10-9-
-----10---8---7------------------

Riff 7d

x 1

------------------------------------------------------------------
------------------------------------------------------------------
------------------------------------------------------------------
---------7----------------7--------------7-7-9---7----7-----------
-10-9-10-----10-9-9-10-10---10-9-9-10-10-----------10---10-9-10-9-
------------------------------------------------------------------

Riff 7e /w Riff 7b

x 3

-------------------
-------------------
-------------------
------9v---7v---9v-
-7v----------------
-------------------

x 1

--------------------------------
--------------------------------
--------------------------------
-------10-9-7---9-7------7------
-10-----------------10-----10-9-
--------------------------------

** Riff 7b **

Riff 8 - Solo 2

-9---7h9p7------7-10-9---7h9p7------7-10-9---7---12---11---10-
-----------10------------------10-----------------------------
--------------------------------------------------------------
--------------------------------------------------------------
--------------------------------------------------------------
--------------------------------------------------------------

** Riff 6 **

** Riff 3 **

** Riff 4 **

** Riff 2 ** x 1 1/2
 

Buď první, kdo ohodnotí tento článek.

Nový komentář

Přihlásit se
  Ještě nemáte vlastní web? Můžete si jej zdarma založit na Blog.cz.