Ebony Dressed For Sunset - Tab.

21. července 2006 v 15:15 | Diablo
Riff 1

-----------------------------------------------------------------
-----------------------------------------------------------------
-----------------------------------------------------------------
-9-9-9-9-9-9-9-9-9-9-9-9-9-9-9-9-8-8-8-8-8-8-8-8-8-8-8-8-8-8-8-8-
-7-7-7-7-7-7-7-7-7-7-7-7-7-7-7-7-6-6-6-6-6-6-6-6-6-6-6-6-6-6-6-6-
-----------------------------------------------------------------
1 2 3 4 1 2 3 4

-----------------------------------------------------------------
-----------------------------------------------------------------
-----------------------------------------------------------------
-7-7-7-7-7-7-7-7-7-7-7-7-7-7-7-7-9-9-9-9-9-9-9-9-1010101010101010
-5-5-5-5-5-5-5-5-5-5-5-5-5-5-5-5-7-7-7-7-7-7-7-7-8-8-8-8-8-8-8-8-
-----------------------------------------------------------------
1 2 3 4 1 2 3 4

Riff 2

-----------------------------------------------------------------
-----------------------------------------------------------------
-----------------------------------------------------------------
---5-4-5---5-4-5---5-4-5---5-4-5---5-4-5---5-4-5---5-4-5---5-4-5-
-7-------7-------6-------6-------5-------5-------7-------8-------
-----------------------------------------------------------------
1 2 3 4 1 2 3 4 1 2 3 4 1 2 3 4

Riff 3 /w Riff 1

-----------------------------------------------------------------
-8-8-8-8-8-8-8-8-8-8-8-8-8-8-8-8-8-8-8-8-8-8-8-8-8-8-8-8-8-8-8-8-
-----------------------------------------------------------------
-----------------------------------------------------------------
-----------------------------------------------------------------
-----------------------------------------------------------------
1 2 3 4 1 2 3 4

-------------------------------------------------5-5-5-7-7-7-8-8-
-7-7-7-7-7-7-7-7-7-7-7-7-7-7-7-7-8-8-8-8-8-8-8-8-----------------
-----------------------------------------------------------------
-----------------------------------------------------------------
-----------------------------------------------------------------
-----------------------------------------------------------------
1 2 3 4 1 2 3 4

Riff 4 /w Riff 1

-----------------------------------------------------------
-8p7-8p7-8p7-8p7-8---7p5-7p5-8p7-7p5-7---7p5-7p5-8p7-7p5-7-
-----------------------------------------------------------
-----------------------------------------------------------
-----------------------------------------------------------
-----------------------------------------------------------

-----5-7-8-
-8-8-------
-----------
-----------
-----------
-----------

** Riff 2 **

Riff 5

--------------------
--------------------
--------------------
----------9---10--9-
-9---10---7---8---7-
-7---8--------------
 

Buď první, kdo ohodnotí tento článek.

Komentáře

1 mbt shoes uk mbt shoes uk | E-mail | Web | 7. června 2013 v 5:32 | Reagovat

Your question answered, I am very satisfied, it should mean you get the signs of new readers.Do you have any suggestions you put your list so that we can enjoy together!You see the blog I am also very happy.

Nový komentář

Přihlásit se
  Ještě nemáte vlastní web? Můžete si jej zdarma založit na Blog.cz.