Bathory Aria - Tab.

21. července 2006 v 15:02 | Diablo
Symbols used:
"..": play the note the appropriate number of times.
"h": hammer on
"p": pull off
"m": palm mute
"/": slide



Figure A:

2:----12/----9---12--11--9h11---9---12/---9---11---11---------

Figure B:

2:----12p11--11--11h12p11---12p11--11--11h12p11---9--

2:-----9---12---11---12----11---11p9---11---11p9---11p9---11p9---12--11--9--12--11--9-----

Figure C:

5:---7..----10..----9..-----7..-----10..-----7..------9..-----------
6:---0..-----0..-----0..-----0..------0..------0..------0..----------

Figure D:

1:---15..----14..----12..---------

Figure E:

1:--15..--14..--12..--------------------------------------------------------------------
2:-------------------------15..--12..--10..---------------------------------------------
3:------------------------------------------------12..--11..--9..-----------------------4:----------------------------------------------------------------------12..--9..--7..--5:-----------------------------------------------------------------------------------------10..--9..--7..
6:-----------------------------------------------------------------------------------------------------------10..--7..--5..--

Figure F:

3:---12..--11..--9..-----

Figure G:

3:---12..--10..--9..------

3:-----------9..--------------
4:----10..--------12..--------

Figure H:

5:--pow7--pow5--pow3--pow2-----------------------pow3--pow2------------
6:------------------------------------------pow1--pow3------------------------

Figure I:

5:--pow7..--pow5..--pow3..--pow2..--------------------------3..--7..--5..------
6:-------------------------------------------------pow1..--pow3..---------------

Figure J:

5:--pow7..--pow10..--pow9..--pow7..-------

Figure K:

5:--pow7..--pow10..--pow8..--pow7..--pow3..--pow7..--pow5..----

Figure L:

5:--pow7--pow7--pow7--pow10--pow10--pow10--pow9--pow9--pow9--pow7--pow7--pow7-----

Figure M:

4:--5..--------------------------------------------4..------------------4..-------------
5:--------5..--6..--8..--7..--5..--7..--5..--------4..--5..--7..--------4..--5..--4..---

4:--5..-------------------------------------------8..--7..--5..--7..--10..--8..--7..--8.
5:--------5..--6..--8..--7..--5..--7..--5..---------------------------------------------

Then play the same type of thing starting on the 6th fret.

Figure N:

4:--/7---------------
5:-------8..--7..-----

Figure O:

4:--/10-----------------
5:---------3..--2..------

Figure P:

3:----------------------9-----------------------9-----------------------9--------------------------9p7-------------
4:-------7..--7h10------------7..--7h10------------7..--7h10-------------9..--9h10------------10p9---------------
5:--/7----------------------/8----------------------/8----------------------/10--------------------------------------

Figure Q:

5:--pow0--------------------pow3..--pow2..-----------------------------
6:-----------pow1--pow1-------------------------pow0------------------

Figure R:

4:------9--9p7----------------7--------------------9--9p7-----------------7--------------------
5:--7-------------10--9h10-----10p9--7-------------------10--9h10------10p9----------------
6:-------------------------------------------------8-----------------------------------------10---

4:------9--9p7----------------7--------------
5:--7-------------10--9h10-----10p9--7----
6:--------------------------------------------

4:------10--10--10p9--7--------------------------------------------------------
5:------------------------------pow3--pow2--pow3--pow5--pow3--pow5-----
6:--8-----------------------------------------------------------------------------

Figure S:

4:------8------8--9--8------8------8--9--8--6------
5:--6------6--------------6------6------------------

Figure T:

4:------6------6--8--6------6-----6--8--6--5--------
5:--5------5--------------5-----5--------------------

Figure U:

3:------3------3--4--3------3-----3--4--3--1---------
5:--2------2--------------2-----2----------------------

Figure V:

6:--m-pow6..--m-pow7..--m-pow6..--m-pow4..-----

6:--m-pow6..--m-pow7..--m-pow6..--m-pow4..--m-pow6..-m-pow7..-------

Figure W:

5:--pow5--------------------------------------------------pow4(..)--pow3(..)---
6:------------pow0--pow1--pow3--pow0--pow1-------------------------------

Figure X:

3:-------------------------------------------------------------------------------
4:--/7--7h8--8--7--6--7--6h7p6..-------5--6----------------------------------
5:------------------------------------------------------------------------------

3:-----------------------------6----------------------------------------------------
4:--/7--7h8--8--7--6--7----------6---5--------------------------------------------
5:-----------------------------------------------------------------------------------
 

Buď první, kdo ohodnotí tento článek.

Nový komentář

Přihlásit se
  Ještě nemáte vlastní web? Můžete si jej zdarma založit na Blog.cz.