A Dream of Wolves in the Snow - Tab

21. července 2006 v 15:20 | Diablo
Riff 1

x 2

-------------------------------------
-------------------------------------
-9-9-9-9-10-10-10-10-9-9-9-9-8-8-8-8-
-9-9-9-9-10-10-10-10-9-9-9-9-8-8-8-8-
-7-7-7-7-8--8--8--8--7-7-7-7-6-6-6-6-
-------------------------------------

Riff 2

x 1

---
---
---
-7-
-7-
-5-

Riff 3

x ?

|-----------------------------------|
|-----------------------------------|
|-----------------------------------|
|-----------------------------------|
|---7-5---------------7-5-----------|
|-5-----8-7-8-7-8---5-----8-7-8-7-8-|
| |
|-----------------------------------|
|-----------------------------------|
|-----------------------------------|
|-7-----------------5---------------|
|-7-----------------5---------------|
|-5-----------------3---------------|

|-----------------------------------|
|-----------------------------------|
|-----------------------------------|
|-----------------------------------|
|---7-5---------------7-5-----------|
|-5-----8-7-8-7-8---5-----8-7-8-7-8-|
| |
|-----------------------------------|
|-----------------------------------|
|-----------------------------------|
|-3---------------------------------|
|-3-----------------5---------------|
|-1-----------------------8-----7---|
 

Buď první, kdo ohodnotí tento článek.

Komentáře

1 mbt shoes uk mbt shoes uk | E-mail | Web | 7. června 2013 v 5:25 | Reagovat

Your question answered, I am very satisfied, it should mean you get the signs of new readers.Do you have any suggestions you put your list so that we can enjoy together!You see the blog I am also very happy.

Nový komentář

Přihlásit se
  Ještě nemáte vlastní web? Můžete si jej zdarma založit na Blog.cz.